ISO-10303-21;
HEADER;
/* Generated by software containing ST-Developer
 * from STEP Tools, Inc. (www.steptools.com) 
 */

FILE_DESCRIPTION(
/* description */ (''),
/* implementation_level */ '2;1');

FILE_NAME(
/* name */ 
'D:\\Documents\\Projects\\Linear Slider\\CAD\\3-Axis Slider CAD STEP E
xports\\3mm to 5mm wheel bearing spacer centred.stp',
/* time_stamp */ '2020-09-01T18:54:35+01:00',
/* author */ ('isaac879'),
/* organization */ (''),
/* preprocessor_version */ 'ST-DEVELOPER v18',
/* originating_system */ 'Autodesk Inventor 2020',
/* authorisation */ '');

FILE_SCHEMA (('AUTOMOTIVE_DESIGN { 1 0 10303 214 3 1 1 }'));
ENDSEC;

DATA;
#10=MECHANICAL_DESIGN_GEOMETRIC_PRESENTATION_REPRESENTATION('',(#13),#247);
#11=SHAPE_REPRESENTATION_RELATIONSHIP('SRR','None',#254,#12);
#12=ADVANCED_BREP_SHAPE_REPRESENTATION('',(#14),#246);
#13=STYLED_ITEM('',(#263),#14);
#14=MANIFOLD_SOLID_BREP('Solid1',#134);
#15=FACE_BOUND('',#39,.T.);
#16=CYLINDRICAL_SURFACE('',#162,1.55);
#17=CYLINDRICAL_SURFACE('',#164,2.5);
#18=CIRCLE('',#157,1.55);
#19=CIRCLE('',#158,2.5);
#20=CIRCLE('',#160,1.55);
#21=CIRCLE('',#161,2.5);
#22=CIRCLE('',#163,1.55);
#23=CIRCLE('',#165,2.5);
#24=CIRCLE('',#166,2.5);
#25=FACE_OUTER_BOUND('',#32,.T.);
#26=FACE_OUTER_BOUND('',#33,.T.);
#27=FACE_OUTER_BOUND('',#34,.T.);
#28=FACE_OUTER_BOUND('',#35,.T.);
#29=FACE_OUTER_BOUND('',#36,.T.);
#30=FACE_OUTER_BOUND('',#37,.T.);
#31=FACE_OUTER_BOUND('',#38,.T.);
#32=EDGE_LOOP('',(#88,#89,#90,#91));
#33=EDGE_LOOP('',(#92,#93,#94,#95));
#34=EDGE_LOOP('',(#96,#97,#98,#99));
#35=EDGE_LOOP('',(#100,#101,#102,#103));
#36=EDGE_LOOP('',(#104,#105,#106,#107,#108,#109,#110));
#37=EDGE_LOOP('',(#111,#112,#113,#114,#115,#116,#117,#118));
#38=EDGE_LOOP('',(#119,#120));
#39=EDGE_LOOP('',(#121));
#40=LINE('',#212,#50);
#41=LINE('',#214,#51);
#42=LINE('',#216,#52);
#43=LINE('',#217,#53);
#44=LINE('',#221,#54);
#45=LINE('',#223,#55);
#46=LINE('',#225,#56);
#47=LINE('',#226,#57);
#48=LINE('',#235,#58);
#49=LINE('',#239,#59);
#50=VECTOR('',#172,10.);
#51=VECTOR('',#173,10.);
#52=VECTOR('',#174,10.);
#53=VECTOR('',#175,10.);
#54=VECTOR('',#178,10.);
#55=VECTOR('',#179,10.);
#56=VECTOR('',#180,10.);
#57=VECTOR('',#181,10.);
#58=VECTOR('',#196,1.55);
#59=VECTOR('',#201,2.5);
#60=VERTEX_POINT('',#210);
#61=VERTEX_POINT('',#211);
#62=VERTEX_POINT('',#213);
#63=VERTEX_POINT('',#215);
#64=VERTEX_POINT('',#219);
#65=VERTEX_POINT('',#220);
#66=VERTEX_POINT('',#222);
#67=VERTEX_POINT('',#224);
#68=VERTEX_POINT('',#234);
#69=VERTEX_POINT('',#238);
#70=VERTEX_POINT('',#240);
#71=EDGE_CURVE('',#60,#61,#40,.T.);
#72=EDGE_CURVE('',#60,#62,#41,.T.);
#73=EDGE_CURVE('',#63,#62,#42,.T.);
#74=EDGE_CURVE('',#61,#63,#43,.T.);
#75=EDGE_CURVE('',#64,#65,#44,.T.);
#76=EDGE_CURVE('',#64,#66,#45,.T.);
#77=EDGE_CURVE('',#67,#66,#46,.T.);
#78=EDGE_CURVE('',#65,#67,#47,.T.);
#79=EDGE_CURVE('',#62,#67,#18,.T.);
#80=EDGE_CURVE('',#66,#63,#19,.T.);
#81=EDGE_CURVE('',#65,#60,#20,.T.);
#82=EDGE_CURVE('',#61,#64,#21,.T.);
#83=EDGE_CURVE('',#65,#68,#48,.T.);
#84=EDGE_CURVE('',#68,#68,#22,.T.);
#85=EDGE_CURVE('',#61,#69,#49,.T.);
#86=EDGE_CURVE('',#69,#70,#23,.T.);
#87=EDGE_CURVE('',#70,#69,#24,.T.);
#88=ORIENTED_EDGE('',*,*,#71,.F.);
#89=ORIENTED_EDGE('',*,*,#72,.T.);
#90=ORIENTED_EDGE('',*,*,#73,.F.);
#91=ORIENTED_EDGE('',*,*,#74,.F.);
#92=ORIENTED_EDGE('',*,*,#75,.F.);
#93=ORIENTED_EDGE('',*,*,#76,.T.);
#94=ORIENTED_EDGE('',*,*,#77,.F.);
#95=ORIENTED_EDGE('',*,*,#78,.F.);
#96=ORIENTED_EDGE('',*,*,#79,.T.);
#97=ORIENTED_EDGE('',*,*,#77,.T.);
#98=ORIENTED_EDGE('',*,*,#80,.T.);
#99=ORIENTED_EDGE('',*,*,#73,.T.);
#100=ORIENTED_EDGE('',*,*,#75,.T.);
#101=ORIENTED_EDGE('',*,*,#81,.T.);
#102=ORIENTED_EDGE('',*,*,#71,.T.);
#103=ORIENTED_EDGE('',*,*,#82,.T.);
#104=ORIENTED_EDGE('',*,*,#81,.F.);
#105=ORIENTED_EDGE('',*,*,#83,.T.);
#106=ORIENTED_EDGE('',*,*,#84,.T.);
#107=ORIENTED_EDGE('',*,*,#83,.F.);
#108=ORIENTED_EDGE('',*,*,#78,.T.);
#109=ORIENTED_EDGE('',*,*,#79,.F.);
#110=ORIENTED_EDGE('',*,*,#72,.F.);
#111=ORIENTED_EDGE('',*,*,#82,.F.);
#112=ORIENTED_EDGE('',*,*,#85,.T.);
#113=ORIENTED_EDGE('',*,*,#86,.T.);
#114=ORIENTED_EDGE('',*,*,#87,.T.);
#115=ORIENTED_EDGE('',*,*,#85,.F.);
#116=ORIENTED_EDGE('',*,*,#74,.T.);
#117=ORIENTED_EDGE('',*,*,#80,.F.);
#118=ORIENTED_EDGE('',*,*,#76,.F.);
#119=ORIENTED_EDGE('',*,*,#87,.F.);
#120=ORIENTED_EDGE('',*,*,#86,.F.);
#121=ORIENTED_EDGE('',*,*,#84,.F.);
#122=PLANE('',#154);
#123=PLANE('',#155);
#124=PLANE('',#156);
#125=PLANE('',#159);
#126=PLANE('',#167);
#127=ADVANCED_FACE('',(#25),#122,.T.);
#128=ADVANCED_FACE('',(#26),#123,.T.);
#129=ADVANCED_FACE('',(#27),#124,.T.);
#130=ADVANCED_FACE('',(#28),#125,.T.);
#131=ADVANCED_FACE('',(#29),#16,.F.);
#132=ADVANCED_FACE('',(#30),#17,.T.);
#133=ADVANCED_FACE('',(#31,#15),#126,.F.);
#134=CLOSED_SHELL('',(#127,#128,#129,#130,#131,#132,#133));
#135=DERIVED_UNIT_ELEMENT(#137,1.);
#136=DERIVED_UNIT_ELEMENT(#249,3.);
#137=(
MASS_UNIT()
NAMED_UNIT(*)
SI_UNIT($,.GRAM.)
);
#138=DERIVED_UNIT((#135,#136));
#139=MEASURE_REPRESENTATION_ITEM('density measure',
POSITIVE_RATIO_MEASURE(1.),#138);
#140=PROPERTY_DEFINITION_REPRESENTATION(#145,#142);
#141=PROPERTY_DEFINITION_REPRESENTATION(#146,#143);
#142=REPRESENTATION('material name',(#144),#246);
#143=REPRESENTATION('density',(#139),#246);
#144=DESCRIPTIVE_REPRESENTATION_ITEM('Generic','Generic');
#145=PROPERTY_DEFINITION('material property','material name',#256);
#146=PROPERTY_DEFINITION('material property','density of part',#256);
#147=DATE_TIME_ROLE('creation_date');
#148=APPLIED_DATE_AND_TIME_ASSIGNMENT(#149,#147,(#256));
#149=DATE_AND_TIME(#150,#151);
#150=CALENDAR_DATE(2020,27,5);
#151=LOCAL_TIME(15,0,4.,#152);
#152=COORDINATED_UNIVERSAL_TIME_OFFSET(0,0,.BEHIND.);
#153=AXIS2_PLACEMENT_3D('placement',#208,#168,#169);
#154=AXIS2_PLACEMENT_3D('',#209,#170,#171);
#155=AXIS2_PLACEMENT_3D('',#218,#176,#177);
#156=AXIS2_PLACEMENT_3D('',#227,#182,#183);
#157=AXIS2_PLACEMENT_3D('',#228,#184,#185);
#158=AXIS2_PLACEMENT_3D('',#229,#186,#187);
#159=AXIS2_PLACEMENT_3D('',#230,#188,#189);
#160=AXIS2_PLACEMENT_3D('',#231,#190,#191);
#161=AXIS2_PLACEMENT_3D('',#232,#192,#193);
#162=AXIS2_PLACEMENT_3D('',#233,#194,#195);
#163=AXIS2_PLACEMENT_3D('',#236,#197,#198);
#164=AXIS2_PLACEMENT_3D('',#237,#199,#200);
#165=AXIS2_PLACEMENT_3D('',#241,#202,#203);
#166=AXIS2_PLACEMENT_3D('',#242,#204,#205);
#167=AXIS2_PLACEMENT_3D('',#243,#206,#207);
#168=DIRECTION('axis',(0.,0.,1.));
#169=DIRECTION('refdir',(1.,0.,0.));
#170=DIRECTION('center_axis',(0.,-1.,0.));
#171=DIRECTION('ref_axis',(1.,0.,0.));
#172=DIRECTION('',(-1.,0.,0.));
#173=DIRECTION('',(0.,0.,1.));
#174=DIRECTION('',(1.,0.,0.));
#175=DIRECTION('',(0.,0.,1.));
#176=DIRECTION('center_axis',(0.,-1.,0.));
#177=DIRECTION('ref_axis',(1.,0.,0.));
#178=DIRECTION('',(-1.,0.,0.));
#179=DIRECTION('',(0.,0.,1.));
#180=DIRECTION('',(1.,0.,0.));
#181=DIRECTION('',(0.,0.,1.));
#182=DIRECTION('center_axis',(0.,0.,1.));
#183=DIRECTION('ref_axis',(1.,0.,0.));
#184=DIRECTION('center_axis',(0.,0.,-1.));
#185=DIRECTION('ref_axis',(-1.,0.,0.));
#186=DIRECTION('center_axis',(0.,0.,1.));
#187=DIRECTION('ref_axis',(1.,0.,0.));
#188=DIRECTION('center_axis',(0.,0.,1.));
#189=DIRECTION('ref_axis',(1.,0.,0.));
#190=DIRECTION('center_axis',(0.,0.,-1.));
#191=DIRECTION('ref_axis',(-1.,0.,0.));
#192=DIRECTION('center_axis',(0.,0.,1.));
#193=DIRECTION('ref_axis',(1.,0.,0.));
#194=DIRECTION('center_axis',(0.,0.,1.));
#195=DIRECTION('ref_axis',(-1.,0.,0.));
#196=DIRECTION('',(0.,0.,-1.));
#197=DIRECTION('center_axis',(0.,0.,-1.));
#198=DIRECTION('ref_axis',(-1.,0.,0.));
#199=DIRECTION('center_axis',(0.,0.,1.));
#200=DIRECTION('ref_axis',(1.,0.,0.));
#201=DIRECTION('',(0.,0.,-1.));
#202=DIRECTION('center_axis',(0.,0.,1.));
#203=DIRECTION('ref_axis',(1.,0.,0.));
#204=DIRECTION('center_axis',(0.,0.,1.));
#205=DIRECTION('ref_axis',(1.,0.,0.));
#206=DIRECTION('center_axis',(0.,0.,1.));
#207=DIRECTION('ref_axis',(1.,0.,0.));
#208=CARTESIAN_POINT('',(0.,0.,0.));
#209=CARTESIAN_POINT('Origin',(-2.5,0.,11.2));
#210=CARTESIAN_POINT('',(-1.55,1.8982025386784E-16,11.2));
#211=CARTESIAN_POINT('',(-2.5,0.,11.2));
#212=CARTESIAN_POINT('',(-1.25,0.,11.2));
#213=CARTESIAN_POINT('',(-1.55,1.8982025386784E-16,13.));
#214=CARTESIAN_POINT('',(-1.55,1.8982025386784E-16,11.2));
#215=CARTESIAN_POINT('',(-2.5,0.,13.));
#216=CARTESIAN_POINT('',(-2.5,0.,13.));
#217=CARTESIAN_POINT('',(-2.5,0.,11.2));
#218=CARTESIAN_POINT('Origin',(1.55,0.,11.2));
#219=CARTESIAN_POINT('',(2.5,0.,11.2));
#220=CARTESIAN_POINT('',(1.55,1.8982025386784E-16,11.2));
#221=CARTESIAN_POINT('',(0.775,0.,11.2));
#222=CARTESIAN_POINT('',(2.5,0.,13.));
#223=CARTESIAN_POINT('',(2.5,0.,11.2));
#224=CARTESIAN_POINT('',(1.55,0.,13.));
#225=CARTESIAN_POINT('',(-2.5,0.,13.));
#226=CARTESIAN_POINT('',(1.55,0.,11.2));
#227=CARTESIAN_POINT('Origin',(0.,1.25,13.));
#228=CARTESIAN_POINT('Origin',(0.,0.,13.));
#229=CARTESIAN_POINT('Origin',(0.,0.,13.));
#230=CARTESIAN_POINT('Origin',(0.,0.,11.2));
#231=CARTESIAN_POINT('Origin',(0.,0.,11.2));
#232=CARTESIAN_POINT('Origin',(0.,0.,11.2));
#233=CARTESIAN_POINT('Origin',(0.,0.,0.));
#234=CARTESIAN_POINT('',(1.55,1.8982025386784E-16,0.));
#235=CARTESIAN_POINT('',(1.55,1.8982025386784E-16,0.));
#236=CARTESIAN_POINT('Origin',(0.,0.,0.));
#237=CARTESIAN_POINT('Origin',(0.,0.,0.));
#238=CARTESIAN_POINT('',(-2.5,-3.06161699786838E-16,0.));
#239=CARTESIAN_POINT('',(-2.5,-3.06161699786838E-16,0.));
#240=CARTESIAN_POINT('',(2.5,0.,0.));
#241=CARTESIAN_POINT('Origin',(0.,0.,0.));
#242=CARTESIAN_POINT('Origin',(0.,0.,0.));
#243=CARTESIAN_POINT('Origin',(0.,0.,0.));
#244=UNCERTAINTY_MEASURE_WITH_UNIT(LENGTH_MEASURE(0.01),#248,
'DISTANCE_ACCURACY_VALUE',
'Maximum model space distance between geometric entities at asserted c
onnectivities');
#245=UNCERTAINTY_MEASURE_WITH_UNIT(LENGTH_MEASURE(0.01),#248,
'DISTANCE_ACCURACY_VALUE',
'Maximum model space distance between geometric entities at asserted c
onnectivities');
#246=(
GEOMETRIC_REPRESENTATION_CONTEXT(3)
GLOBAL_UNCERTAINTY_ASSIGNED_CONTEXT((#244))
GLOBAL_UNIT_ASSIGNED_CONTEXT((#248,#250,#251))
REPRESENTATION_CONTEXT('','3D')
);
#247=(
GEOMETRIC_REPRESENTATION_CONTEXT(3)
GLOBAL_UNCERTAINTY_ASSIGNED_CONTEXT((#245))
GLOBAL_UNIT_ASSIGNED_CONTEXT((#248,#250,#251))
REPRESENTATION_CONTEXT('','3D')
);
#248=(
LENGTH_UNIT()
NAMED_UNIT(*)
SI_UNIT(.MILLI.,.METRE.)
);
#249=(
LENGTH_UNIT()
NAMED_UNIT(*)
SI_UNIT(.CENTI.,.METRE.)
);
#250=(
NAMED_UNIT(*)
PLANE_ANGLE_UNIT()
SI_UNIT($,.RADIAN.)
);
#251=(
NAMED_UNIT(*)
SI_UNIT($,.STERADIAN.)
SOLID_ANGLE_UNIT()
);
#252=SHAPE_DEFINITION_REPRESENTATION(#253,#254);
#253=PRODUCT_DEFINITION_SHAPE('',$,#256);
#254=SHAPE_REPRESENTATION('',(#153),#246);
#255=PRODUCT_DEFINITION_CONTEXT('part definition',#260,'design');
#256=PRODUCT_DEFINITION('3mm to 5mm wheel bearing spacer centred',
'3mm to 5mm wheel bearing spacer centred',#257,#255);
#257=PRODUCT_DEFINITION_FORMATION('',$,#262);
#258=PRODUCT_RELATED_PRODUCT_CATEGORY(
'3mm to 5mm wheel bearing spacer centred',
'3mm to 5mm wheel bearing spacer centred',(#262));
#259=APPLICATION_PROTOCOL_DEFINITION('international standard',
'automotive_design',2009,#260);
#260=APPLICATION_CONTEXT(
'Core Data for Automotive Mechanical Design Process');
#261=PRODUCT_CONTEXT('part definition',#260,'mechanical');
#262=PRODUCT('3mm to 5mm wheel bearing spacer centred',
'3mm to 5mm wheel bearing spacer centred',$,(#261));
#263=PRESENTATION_STYLE_ASSIGNMENT((#264));
#264=SURFACE_STYLE_USAGE(.BOTH.,#267);
#265=SURFACE_STYLE_RENDERING_WITH_PROPERTIES($,#271,(#266));
#266=SURFACE_STYLE_TRANSPARENT(0.);
#267=SURFACE_SIDE_STYLE('',(#268,#265));
#268=SURFACE_STYLE_FILL_AREA(#269);
#269=FILL_AREA_STYLE('',(#270));
#270=FILL_AREA_STYLE_COLOUR('',#271);
#271=COLOUR_RGB('',0.749019607843137,0.749019607843137,0.749019607843137);
ENDSEC;
END-ISO-10303-21;
